Forum de l'ordre Les Tenebres Index du Forum
tablature

 
Poster un nouveau sujet   Répondre au sujet    Forum de l'ordre Les Tenebres Index du Forum -> salle de discussion -> Taverne
Sujet précédent :: Sujet suivant  
Auteur Message
serrangel
Reine

Hors ligne

Inscrit le: 19 Avr 2008
Messages: 666

MessagePosté le: Mer 11 Fév - 15:24 (2009)    Sujet du message: tablature Répondre en citant

Pub herta


---0--2--3-2--3--7---0--2--3--2--3--7--3--2--0--2--3--5--------------
-------------------------------------------------------------------------------
-------------------------------------------------------------------------------
-------------------------------------------------------------------------------
-------------------------------------------------------------------------------
-------------------------------------------------------------------------------
_________________
le yable

http://serrangel66.labrute.fr


Dernière édition par serrangel le Mer 11 Fév - 15:28 (2009); édité 3 fois
Revenir en haut
Publicité






MessagePosté le: Mer 11 Fév - 15:24 (2009)    Sujet du message: Publicité

PublicitéSupprimer les publicités ?
Revenir en haut
serrangel
Reine

Hors ligne

Inscrit le: 19 Avr 2008
Messages: 666

MessagePosté le: Mer 11 Fév - 15:25 (2009)    Sujet du message: tablature Répondre en citant

 à la faveur de l'automne ( 1ère ligne = corde du haut)

E|-----------------------------------------------------|
B|-----------------------------------------------------|
G|-2-----2-1-----0-1-----0-3----------------------|
D|---0-------0---—---0-------0--------------------|
A|-----0-------0-------0-------0--------------------|
E|-----------------------------------------------------|
_________________
le yable

http://serrangel66.labrute.fr
Revenir en haut
serrangel
Reine

Hors ligne

Inscrit le: 19 Avr 2008
Messages: 666

MessagePosté le: Mer 11 Fév - 15:27 (2009)    Sujet du message: tablature Répondre en citant

  Nirvana - Come as you are ( 1ère ligne = corde du haut)


E|-0-0-|1-2---2---2-2-1-0---0-0-----------------------|
B|-----|----0---0---------2-----2-------------------------|
G|-----|----------------------------------------------------|
D|-----|----------------------------------------------------|
A|-----|----------------------------------------------------|
E|-----|----------------------------------------------------|

 à la fin reprendre à partir de la 3eme note 
_________________
le yable

http://serrangel66.labrute.fr
Revenir en haut
wolfmaster
Invité

Hors ligne




MessagePosté le: Lun 8 Juin - 00:09 (2009)    Sujet du message: méthode pour jouer liberta de pep's Répondre en citant

accords :

capo case 6. joue en boucle :

[022000] Mi mineur
[032000] Do
[320000] Sol
[200000] Ré

pour l'intro jouer deux fois de suite chaque corde sur lesquelles vous appuyez puis passer a l'accord suivant par exemple pour le premier accord gratter la corde deux puis la corde trois deux fois de suite puis pareil pour le second accord pour le troisieme corde un et deux etc ... vous me suivez ??? ^^

une fois que vous avez fait l'intro ci dessus il suffit de reprendre les même accords que précedemment en grattan toutes les cordes sur ce rythme :

BAS BAS HAUT    HAUT BAT HAUT


HAUT = Vous gratter les cordes vers le haut

BAS = Vous grattez les cordes vers le bas

Capo = le capodastre est un objet généralement en forme de pince permettant de bloquer toutes les cordes d'une case


en esperant avoir été assez clair si vous ne comprenez pas voici la vidéo grace à laquelle j'ai appris cette chanson : http://www.youtube.com/watch?v=lPP7C51N-TE
Revenir en haut
wolfmaster
Invité

Hors ligne




MessagePosté le: Lun 8 Juin - 00:46 (2009)    Sujet du message: comment jouer seven nation army des white stripes Répondre en citant

pour ce qui connaissent pas c'est la chanson que tout les rugbyman chante ts en coeur sans savoir d'ou vient la chanson aller l'écouter sur internet vous comprendrez ^^

en ce qui nous concerne on s'en cogne on veut juste la jouer a la gratte.

dc voici la tablature d'une simplicité enfantine :

-------------3-1-0-----------3-1-0------------3-1-3-1-0---
---0-0-3-0---------0-0-3-0---------0-0-3-0----------------      ( Se joue sur les deux premières cordes de la guiitares donc celle du haut )


à jouer en boucle autant de fois que nécessaire pour que la fille devant vous ( ou le groupe de rugbymen ) tombe dans vos bras
xD


Enjoy !
Revenir en haut
wolfmaster
Invité

Hors ligne




MessagePosté le: Lun 8 Juin - 00:59 (2009)    Sujet du message: comment jouer stand by me Répondre en citant

-3----------3------------------------------3-1-1-0---3-3----
----2-3-3-----2-3-3---3-2-0-0---2-0-0------------0--------


Tout comme seven nation army à jouer en boucle sur les deux premières cordes jusqu'a avoir la peau des mains qui tombe comme du parmesan
xD



Enjoy !
Revenir en haut
Contenu Sponsorisé






MessagePosté le: Aujourd’hui à 00:37 (2018)    Sujet du message: tablature

Revenir en haut
Montrer les messages depuis:   
Poster un nouveau sujet   Répondre au sujet    Forum de l'ordre Les Tenebres Index du Forum -> salle de discussion -> Taverne Toutes les heures sont au format GMT + 2 Heures
Page 1 sur 1

 
Sauter vers:  

Index | Panneau d’administration | faire son forum | Forum gratuit d’entraide | Annuaire des forums gratuits | Signaler une violation | Conditions générales d'utilisation
Powered by phpBB © 2001, 2018 phpBB Group
Traduction par : phpBB-fr.com Legend Template designed by BrideXIII
Forum de l'ordre Les Tenebres Index du Forum FAQ Rechercher Profil S’enregistrer Groupes Membres Se connecter pour vérifier ses messages privés Connexion